烏克麗麗有四條絃

一般簡易的四線譜是為了表示彈奏烏克麗麗,告訴你所彈的是哪一絃.

然後是那一絃的哪一格.

所以四線譜很簡單,基本上就是看圖說故事.

通常會像下圖這樣呈現:

1---------------------------------    烏克麗麗第一絃(最下面的那一絃),這絃的音是A(La)(不用壓任何一格)

2----------------------------------  烏克麗麗第二絃(最下面數上來第二絃),這絃的音是E(Mi)(不用壓任何一格)

3----------------------------------  烏克麗麗第三絃(最下面數上來第三絃),這絃的音是C(Do)(不用壓任何一格)

4----------------------------------  烏克麗麗第四絃(最上面的那一絃),這絃的音是G(Sol)(不用壓任何一格)

例一:

1-----------------------------------

2----0----0----0----0-------------

3-----------------------------------

4-----------------------------------

例一,出現了四個零(0)在第二絃,意思就是彈第二絃空絃彈四下.

例二:

1-----------------------------------

2----0----0----1----3-------------

3-----------------------------------

4-----------------------------------

例二,就是第一音彈第二絃的空絃音,第二個音也是彈第二絃的空絃音

第三個音是左手食指壓著第二絃的第一格,右手用大拇指下撥第二絃.

第四個音是左手無名指壓著第二絃的第三格,右手用大拇指下撥第二絃.

所以例二只看右手來說,跟例一是做一樣的動作.

差別再於左手有沒有壓其他的格子.

例三:

1----3-------------------------------

2----0------------------------------

3----0-------------------------------

4----0-------------------------------

例三是垂直一起出現代表要一起彈

可以用刷扣(chord)的方式一起往下彈 或是往上彈

可以用左手食指

也可以用左手拇指

或是其他手法都有可能

使用不同的手指,主要差別在於音色不同,或是節奏不同要安排比較好的順序.

比較細節的部分

在之後的節奏課會說得更詳細.

今天說的四線譜是比較簡單的

裡面缺少了表示節奏的符號

這個在之後比較正式的曲譜會出現

到時候會再更詳細說明

 

 

, , ,

Posted by 台灣烏克麗麗教學 at 痞客邦 PIXNET 留言(1) 引用(0) 人氣()


open trackbacks list Trackbacks (0)

留言列表 (1)

Post Comment
  • jack
  • 看起來簡便易懂
    好期待更進一步的說明

You haven’t logged in yet, please use guest status to leave message. You can also log in with above service account and leave message

other options